  0
SECTION
  2
HEADER
  9
$ACADVER
  1
AC1015
  9
$ACADMAINTVER
 70
     6
  9
$DWGCODEPAGE
  3
ANSI_1254
  9
$INSBASE
 10
0.0
 20
0.0
 30
0.0
  9
$EXTMIN
 10
0.0
 20
0.0
 30
0.0
  9
$EXTMAX
 10
279.4
 20
215.9
 30
0.0
  9
$LIMMIN
 10
0.0
 20
0.0
  9
$LIMMAX
 10
279.4
 20
215.9
  9
$ORTHOMODE
 70
     0
  9
$REGENMODE
 70
     1
  9
$FILLMODE
 70
     1
  9
$QTEXTMODE
 70
     0
  9
$MIRRTEXT
 70
     1
  9
$LTSCALE
 40
1.0
  9
$ATTMODE
 70
     1
  9
$TEXTSIZE
 40
3.5
  9
$TRACEWID
 40
1.0
  9
$TEXTSTYLE
  7
Standard
  9
$CLAYER
  8
0
  9
$CELTYPE
  6
ByLayer
  9
$CECOLOR
 62
   256
  9
$CELTSCALE
 40
1.0
  9
$DISPSILH
 70
     0
  9
$DIMSCALE
 40
1.0
  9
$DIMASZ
 40
3.5
  9
$DIMEXO
 40
1.0
  9
$DIMDLI
 40
3.75
  9
$DIMRND
 40
0.0
  9
$DIMDLE
 40
0.0
  9
$DIMEXE
 40
1.0
  9
$DIMTP
 40
0.0
  9
$DIMTM
 40
0.0
  9
$DIMTXT
 40
3.5
  9
$DIMCEN
 40
2.5
  9
$DIMTSZ
 40
0.0
  9
$DIMTOL
 70
     0
  9
$DIMLIM
 70
     0
  9
$DIMTIH
 70
     1
  9
$DIMTOH
 70
     1
  9
$DIMSE1
 70
     0
  9
$DIMSE2
 70
     0
  9
$DIMTAD
 70
     1
  9
$DIMZIN
 70
     0
  9
$DIMBLK
  1

  9
$DIMASO
 70
     1
  9
$DIMSHO
 70
     1
  9
$DIMPOST
  1

  9
$DIMAPOST
  1

  9
$DIMALT
 70
     0
  9
$DIMALTD
 70
     3
  9
$DIMALTF
 40
0.0393700787
  9
$DIMLFAC
 40
1.0
  9
$DIMTOFL
 70
     1
  9
$DIMTVP
 40
0.0
  9
$DIMTIX
 70
     0
  9
$DIMSOXD
 70
     0
  9
$DIMSAH
 70
     0
  9
$DIMBLK1
  1

  9
$DIMBLK2
  1

  9
$DIMSTYLE
  2
ISO-25
  9
$DIMCLRD
 70
     0
  9
$DIMCLRE
 70
     0
  9
$DIMCLRT
 70
     0
  9
$DIMTFAC
 40
1.0
  9
$DIMGAP
 40
1.524
  9
$DIMJUST
 70
     0
  9
$DIMSD1
 70
     0
  9
$DIMSD2
 70
     0
  9
$DIMTOLJ
 70
     0
  9
$DIMTZIN
 70
     0
  9
$DIMALTZ
 70
     0
  9
$DIMALTTZ
 70
     0
  9
$DIMUPT
 70
     0
  9
$DIMDEC
 70
     2
  9
$DIMTDEC
 70
     2
  9
$DIMALTU
 70
     2
  9
$DIMALTTD
 70
     3
  9
$DIMTXSTY
  7
Standard
  9
$DIMAUNIT
 70
     0
  9
$DIMADEC
 70
     2
  9
$DIMALTRND
 40
0.0
  9
$DIMAZIN
 70
     0
  9
$DIMDSEP
 70
    44
  9
$DIMATFIT
 70
     3
  9
$DIMFRAC
 70
     0
  9
$DIMLDRBLK
  1

  9
$DIMLUNIT
 70
     2
  9
$DIMLWD
 70
    -2
  9
$DIMLWE
 70
    -2
  9
$DIMTMOVE
 70
     0
  9
$LUNITS
 70
     2
  9
$LUPREC
 70
     2
  9
$SKETCHINC
 40
1.0
  9
$FILLETRAD
 40
10.0
  9
$AUNITS
 70
     0
  9
$AUPREC
 70
     2
  9
$MENU
  1
.
  9
$ELEVATION
 40
0.0
  9
$PELEVATION
 40
0.0
  9
$THICKNESS
 40
0.0
  9
$LIMCHECK
 70
     0
  9
$CHAMFERA
 40
0.0
  9
$CHAMFERB
 40
0.0
  9
$CHAMFERC
 40
0.0
  9
$CHAMFERD
 40
0.0
  9
$SKPOLY
 70
     0
  9
$TDCREATE
 40
2458985.633228716
  9
$TDUCREATE
 40
2458985.508228716
  9
$TDUPDATE
 40
2458985.633229028
  9
$TDUUPDATE
 40
2458985.508229028
  9
$TDINDWG
 40
0.0000000116
  9
$TDUSRTIMER
 40
0.0000000116
  9
$USRTIMER
 70
     1
  9
$ANGBASE
 50
0.0
  9
$ANGDIR
 70
     0
  9
$PDMODE
 70
     0
  9
$PDSIZE
 40
-1.0
  9
$PLINEWID
 40
0.0
  9
$SPLFRAME
 70
     0
  9
$SPLINETYPE
 70
     6
  9
$SPLINESEGS
 70
     8
  9
$HANDSEED
  5
CC
  9
$SURFTAB1
 70
     6
  9
$SURFTAB2
 70
     6
  9
$SURFTYPE
 70
     6
  9
$SURFU
 70
     6
  9
$SURFV
 70
     6
  9
$UCSBASE
  2

  9
$UCSNAME
  2

  9
$UCSORG
 10
0.0
 20
0.0
 30
0.0
  9
$UCSXDIR
 10
1.0
 20
0.0
 30
0.0
  9
$UCSYDIR
 10
0.0
 20
1.0
 30
0.0
  9
$UCSORTHOREF
  2

  9
$UCSORTHOVIEW
 70
     0
  9
$UCSORGTOP
 10
0.0
 20
0.0
 30
0.0
  9
$UCSORGBOTTOM
 10
0.0
 20
0.0
 30
0.0
  9
$UCSORGLEFT
 10
0.0
 20
0.0
 30
0.0
  9
$UCSORGRIGHT
 10
0.0
 20
0.0
 30
0.0
  9
$UCSORGFRONT
 10
0.0
 20
0.0
 30
0.0
  9
$UCSORGBACK
 10
0.0
 20
0.0
 30
0.0
  9
$PUCSBASE
  2

  9
$PUCSNAME
  2

  9
$PUCSORG
 10
0.0
 20
0.0
 30
0.0
  9
$PUCSXDIR
 10
1.0
 20
0.0
 30
0.0
  9
$PUCSYDIR
 10
0.0
 20
1.0
 30
0.0
  9
$PUCSORTHOREF
  2

  9
$PUCSORTHOVIEW
 70
     0
  9
$PUCSORGTOP
 10
0.0
 20
0.0
 30
0.0
  9
$PUCSORGBOTTOM
 10
0.0
 20
0.0
 30
0.0
  9
$PUCSORGLEFT
 10
0.0
 20
0.0
 30
0.0
  9
$PUCSORGRIGHT
 10
0.0
 20
0.0
 30
0.0
  9
$PUCSORGFRONT
 10
0.0
 20
0.0
 30
0.0
  9
$PUCSORGBACK
 10
0.0
 20
0.0
 30
0.0
  9
$USERI1
 70
     0
  9
$USERI2
 70
     0
  9
$USERI3
 70
     0
  9
$USERI4
 70
     0
  9
$USERI5
 70
     0
  9
$USERR1
 40
0.0
  9
$USERR2
 40
0.0
  9
$USERR3
 40
0.0
  9
$USERR4
 40
0.0
  9
$USERR5
 40
0.0
  9
$WORLDVIEW
 70
     1
  9
$SHADEDGE
 70
     3
  9
$SHADEDIF
 70
    70
  9
$TILEMODE
 70
     1
  9
$MAXACTVP
 70
    64
  9
$PINSBASE
 10
0.0
 20
0.0
 30
0.0
  9
$PLIMCHECK
 70
     0
  9
$PEXTMIN
 10
1.0000000000E+20
 20
1.0000000000E+20
 30
1.0000000000E+20
  9
$PEXTMAX
 10
-1.0000000000E+20
 20
-1.0000000000E+20
 30
-1.0000000000E+20
  9
$PLIMMIN
 10
0.0
 20
0.0
  9
$PLIMMAX
 10
420.0
 20
297.0
  9
$UNITMODE
 70
     0
  9
$VISRETAIN
 70
     1
  9
$PLINEGEN
 70
     0
  9
$PSLTSCALE
 70
     1
  9
$TREEDEPTH
 70
  3020
  9
$CMLSTYLE
  2
Standard
  9
$CMLJUST
 70
     0
  9
$CMLSCALE
 40
20.0
  9
$PROXYGRAPHICS
 70
     1
  9
$MEASUREMENT
 70
     1
  9
$CELWEIGHT
370
    -1
  9
$ENDCAPS
280
     0
  9
$JOINSTYLE
280
     0
  9
$LWDISPLAY
290
     1
  9
$INSUNITS
 70
     4
  9
$HYPERLINKBASE
  1

  9
$STYLESHEET
  1

  9
$XEDIT
290
     1
  9
$CEPSNTYPE
380
     0
  9
$PSTYLEMODE
290
     1
  9
$FINGERPRINTGUID
  2
{8aa1dc47-2820-4969-be9c-876bf91f9bb7}
  9
$VERSIONGUID
  2
{FAEB1C32-E019-11D5-929B-00C0DF256EC4}
  9
$EXTNAMES
290
     1
  9
$PSVPSCALE
 40
0.0
  9
$OLESTARTUP
290
     0
  0
ENDSEC
  0
SECTION
  2
CLASSES
  0
CLASS
  1
ACDBDICTIONARYWDFLT
  2
AcDbDictionaryWithDefault
  3
ObjectDBX Classes
 90
        0
280
     0
281
     0
  0
CLASS
  1
VISUALSTYLE
  2
AcDbVisualStyle
  3
ObjectDBX Classes
 90
     4095
280
     0
281
     0
  0
CLASS
  1
MATERIAL
  2
AcDbMaterial
  3
ObjectDBX Classes
 90
     1153
280
     0
281
     0
  0
CLASS
  1
SCALE
  2
AcDbScale
  3
ObjectDBX Classes
 90
     1153
280
     0
281
     0
  0
CLASS
  1
TABLESTYLE
  2
AcDbTableStyle
  3
ObjectDBX Classes
 90
     4095
280
     0
281
     0
  0
CLASS
  1
MLEADERSTYLE
  2
AcDbMLeaderStyle
  3
ACDB_MLEADERSTYLE_CLASS
 90
     4095
280
     0
281
     0
  0
CLASS
  1
SUN
  2
AcDbSun
  3
SCENEOE
 90
     1153
280
     0
281
     0
  0
CLASS
  1
ACDBPLACEHOLDER
  2
AcDbPlaceHolder
  3
ObjectDBX Classes
 90
        0
280
     0
281
     0
  0
CLASS
  1
LAYOUT
  2
AcDbLayout
  3
ObjectDBX Classes
 90
        0
280
     0
281
     0
  0
ENDSEC
  0
SECTION
  2
TABLES
  0
TABLE
  2
VPORT
  5
8
330
0
100
AcDbSymbolTable
 70
     1
  0
VPORT
  5
29
330
8
100
AcDbSymbolTableRecord
100
AcDbViewportTableRecord
  2
*Active
 70
     0
 10
0.0
 20
0.0
 11
1.0
 21
1.0
 12
139.7
 22
107.95
 13
0.0
 23
0.0
 14
10.0
 24
10.0
 15
10.0
 25
10.0
 16
0.0
 26
0.0
 36
1.0
 17
0.0
 27
0.0
 37
0.0
 40
215.9
 41
1.2941176471
 42
50.0
 43
0.0
 44
0.0
 50
0.0
 51
0.0
 71
     0
 72
  2000
 73
     1
 74
     3
 75
     0
 76
     0
 77
     0
 78
     0
281
     0
 65
     1
110
0.0
120
0.0
130
0.0
111
1.0
121
0.0
131
0.0
112
0.0
122
1.0
132
0.0
 79
     0
146
0.0
  0
ENDTAB
  0
TABLE
  2
LTYPE
  5
5
330
0
100
AcDbSymbolTable
 70
     6
  0
LTYPE
  5
14
330
5
100
AcDbSymbolTableRecord
100
AcDbLinetypeTableRecord
  2
ByBlock
 70
     0
  3

 72
    65
 73
     0
 40
0.0
  0
LTYPE
  5
15
330
5
100
AcDbSymbolTableRecord
100
AcDbLinetypeTableRecord
  2
ByLayer
 70
     0
  3

 72
    65
 73
     0
 40
0.0
  0
LTYPE
  5
16
330
5
100
AcDbSymbolTableRecord
100
AcDbLinetypeTableRecord
  2
Continuous
 70
     0
  3
Solid line
 72
    65
 73
     0
 40
0.0
  0
LTYPE
  5
6E
330
5
100
AcDbSymbolTableRecord
100
AcDbLinetypeTableRecord
  2
HIDDEN
 70
     0
  3
Hidden __ __ __ __ __ __ __ __ __ __ __ __ __ __
 72
    65
 73
     2
 40
1.905
 49
1.27
 74
     0
 49
-0.635
 74
     0
  0
LTYPE
  5
6F
330
5
100
AcDbSymbolTableRecord
100
AcDbLinetypeTableRecord
  2
PHANTOM
 70
     0
  3
Phantom ______  __  __  ______  __  __  ______
 72
    65
 73
     6
 40
12.7
 49
6.35
 74
     0
 49
-1.27
 74
     0
 49
1.27
 74
     0
 49
-1.27
 74
     0
 49
1.27
 74
     0
 49
-1.27
 74
     0
  0
LTYPE
  5
70
330
5
100
AcDbSymbolTableRecord
100
AcDbLinetypeTableRecord
  2
CENTER
 70
     0
  3
Center ____ _ ____ _ ____ _ ____ _ ____ _ ____
 72
    65
 73
     4
 40
10.16
 49
6.35
 74
     0
 49
-1.27
 74
     0
 49
1.27
 74
     0
 49
-1.27
 74
     0
  0
LTYPE
  5
71
330
5
100
AcDbSymbolTableRecord
100
AcDbLinetypeTableRecord
  2
CENTERX2
 70
     0
  3
Center (2x) ________  __  ________  __  _____
 72
    65
 73
     4
 40
20.32
 49
12.7
 74
     0
 49
-2.54
 74
     0
 49
2.54
 74
     0
 49
-2.54
 74
     0
  0
LTYPE
  5
72
330
5
100
AcDbSymbolTableRecord
100
AcDbLinetypeTableRecord
  2
DOT2
 70
     0
  3
Dot (.5x) ........................................
 72
    65
 73
     2
 40
0.635
 49
0.0
 74
     0
 49
-0.635
 74
     0
  0
ENDTAB
  0
TABLE
  2
LAYER
  5
2
330
0
100
AcDbSymbolTable
 70
    17
  0
LAYER
  5
10
330
2
100
AcDbSymbolTableRecord
100
AcDbLayerTableRecord
  2
0
 70
     0
 62
     7
  6
Continuous
370
    -3
390
F
  0
LAYER
  5
73
330
2
100
AcDbSymbolTableRecord
100
AcDbLayerTableRecord
  2
FORMAT
 70
     0
 62
     7
  6
Continuous
370
    -3
390
F
  0
LAYER
  5
74
330
2
100
AcDbSymbolTableRecord
100
AcDbLayerTableRecord
  2
YARDIMCI_GEOMETRI
 70
     0
 62
    -6
  6
Continuous
290
     0
370
    -3
390
F
  0
LAYER
  5
75
330
2
100
AcDbSymbolTableRecord
100
AcDbLayerTableRecord
  2
SAYFA_CERCEVESI
 70
     0
 62
     7
  6
Continuous
370
    25
390
F
  0
LAYER
  5
76
330
2
100
AcDbSymbolTableRecord
100
AcDbLayerTableRecord
  2
ANTET
 70
     0
 62
     7
  6
Continuous
370
    -3
390
F
  0
LAYER
  5
77
330
2
100
AcDbSymbolTableRecord
100
AcDbLayerTableRecord
  2
OLCU
 70
     0
 62
   150
  6
Continuous
370
    -3
390
F
  0
LAYER
  5
78
330
2
100
AcDbSymbolTableRecord
100
AcDbLayerTableRecord
  2
METIN
 70
     0
 62
    96
  6
Continuous
370
    -3
390
F
  0
LAYER
  5
79
330
2
100
AcDbSymbolTableRecord
100
AcDbLayerTableRecord
  2
BALON
 70
     0
 62
     5
  6
Continuous
370
    -3
390
F
  0
LAYER
  5
7A
330
2
100
AcDbSymbolTableRecord
100
AcDbLayerTableRecord
  2
VURGU
 70
     0
 62
     7
  6
Continuous
370
    -3
390
F
  0
LAYER
  5
7B
330
2
100
AcDbSymbolTableRecord
100
AcDbLayerTableRecord
  2
SILIK
 70
     0
 62
     7
  6
Continuous
370
    -3
390
F
  0
LAYER
  5
7C
330
2
100
AcDbSymbolTableRecord
100
AcDbLayerTableRecord
  2
MODEL
 70
     0
 62
     7
  6
Continuous
370
    -3
390
F
  0
LAYER
  5
7D
330
2
100
AcDbSymbolTableRecord
100
AcDbLayerTableRecord
  2
DETAYLANDıRMA
 70
     0
 62
   190
  6
Continuous
370
    -3
390
F
  0
LAYER
  5
7E
330
2
100
AcDbSymbolTableRecord
100
AcDbLayerTableRecord
  2
TOLERANS
 70
     0
 62
   230
  6
Continuous
370
    -3
390
F
  0
LAYER
  5
7F
330
2
100
AcDbSymbolTableRecord
100
AcDbLayerTableRecord
  2
MERKEZ_CIZGILERI
 70
     0
 62
    30
  6
Continuous
370
    -3
390
F
  0
LAYER
  5
80
330
2
100
AcDbSymbolTableRecord
100
AcDbLayerTableRecord
  2
KESIT-DETAY_CIZGILERI
 70
     0
 62
     7
  6
Continuous
370
    -3
390
F
  0
LAYER
  5
81
330
2
100
AcDbSymbolTableRecord
100
AcDbLayerTableRecord
  2
\U+041E\U+0421\U+0415\U+0412\U+042B\U+0415
 70
     0
 62
     7
  6
Continuous
370
    -3
390
F
  0
LAYER
  5
82
330
2
100
AcDbSymbolTableRecord
100
AcDbLayerTableRecord
  2
\U+0412\U+041E\U+0414\U+042F\U+041D\U+042B\U+0415_\U+0417\U+041D\U+0410\U+041A\U+0418
 70
     0
 62
    11
  6
Continuous
370
    -3
390
F
  0
ENDTAB
  0
TABLE
  2
STYLE
  5
3
330
0
100
AcDbSymbolTable
 70
     1
  0
STYLE
  5
11
330
3
100
AcDbSymbolTableRecord
100
AcDbTextStyleTableRecord
  2
Standard
 70
     0
 40
0.0
 41
1.0
 50
0.0
 71
     0
 42
3.5
  3
txt
  4

  0
ENDTAB
  0
TABLE
  2
VIEW
  5
6
330
0
100
AcDbSymbolTable
 70
     0
  0
ENDTAB
  0
TABLE
  2
UCS
  5
7
330
0
100
AcDbSymbolTable
 70
     0
  0
ENDTAB
  0
TABLE
  2
APPID
  5
9
330
0
100
AcDbSymbolTable
 70
     1
  0
APPID
  5
12
330
9
100
AcDbSymbolTableRecord
100
AcDbRegAppTableRecord
  2
ACAD
 70
     0
  0
ENDTAB
  0
TABLE
  2
DIMSTYLE
  5
A
330
0
100
AcDbSymbolTable
 70
     1
100
AcDbDimStyleTable
  0
DIMSTYLE
105
27
330
A
100
AcDbSymbolTableRecord
100
AcDbDimStyleTableRecord
  2
ISO-25
 70
     0
 41
2.5
 42
0.625
 43
3.75
 44
1.25
 73
     0
 74
     0
 77
     1
 78
     8
140
2.5
141
2.5
143
0.0393700787
147
0.625
171
     3
172
     1
178
     0
271
     2
272
     2
274
     3
278
    44
283
     0
284
     8
340
11
  0
ENDTAB
  0
TABLE
  2
BLOCK_RECORD
  5
1
330
0
100
AcDbSymbolTable
 70
     2
  0
BLOCK_RECORD
  5
1F
330
1
100
AcDbSymbolTableRecord
100
AcDbBlockTableRecord
  2
*Model_Space
340
22
  0
BLOCK_RECORD
  5
1B
330
1
100
AcDbSymbolTableRecord
100
AcDbBlockTableRecord
  2
*Paper_Space
340
1E
  0
BLOCK_RECORD
  5
23
330
1
100
AcDbSymbolTableRecord
100
AcDbBlockTableRecord
  2
*Paper_Space0
340
26
  0
BLOCK_RECORD
  5
87
330
1
100
AcDbSymbolTableRecord
100
AcDbBlockTableRecord
  2
SW_CENTERMARKSYMBOL_0
340
0
102
{BLKREFS
331
92
102
}
  0
ENDTAB
  0
ENDSEC
  0
SECTION
  2
BLOCKS
  0
BLOCK
  5
20
330
1F
100
AcDbEntity
  8
0
100
AcDbBlockBegin
  2
*Model_Space
 70
     0
 10
0.0
 20
0.0
 30
0.0
  3
*Model_Space
  1

  0
ENDBLK
  5
21
330
1F
100
AcDbEntity
  8
0
100
AcDbBlockEnd
  0
BLOCK
  5
1C
330
1B
100
AcDbEntity
 67
     1
  8
0
100
AcDbBlockBegin
  2
*Paper_Space
 70
     0
 10
0.0
 20
0.0
 30
0.0
  3
*Paper_Space
  1

  0
ENDBLK
  5
1D
330
1B
100
AcDbEntity
 67
     1
  8
0
100
AcDbBlockEnd
  0
BLOCK
  5
24
330
23
100
AcDbEntity
  8
0
100
AcDbBlockBegin
  2
*Paper_Space0
 70
     0
 10
0.0
 20
0.0
 30
0.0
  3
*Paper_Space0
  1

  0
ENDBLK
  5
25
330
23
100
AcDbEntity
  8
0
100
AcDbBlockEnd
  0
BLOCK
  5
88
330
87
100
AcDbEntity
  8
0
100
AcDbBlockBegin
  2
SW_CENTERMARKSYMBOL_0
 70
     0
 10
0.0
 20
0.0
 30
0.0
  3
SW_CENTERMARKSYMBOL_0
  1

  0
LINE
  5
8A
330
87
100
AcDbEntity
  8
FORMAT
 62
     0
100
AcDbLine
 10
0.0
 20
0.0
 30
0.0
 11
0.0
 21
2.5
 31
0.0
  0
LINE
  5
8B
330
87
100
AcDbEntity
  8
FORMAT
 62
     0
100
AcDbLine
 10
0.0
 20
0.0
 30
0.0
 11
-2.5
 21
0.0
 31
0.0
  0
LINE
  5
8C
330
87
100
AcDbEntity
  8
FORMAT
 62
     0
100
AcDbLine
 10
0.0
 20
0.0
 30
0.0
 11
0.0
 21
-2.5
 31
0.0
  0
LINE
  5
8D
330
87
100
AcDbEntity
  8
FORMAT
 62
     0
100
AcDbLine
 10
0.0
 20
0.0
 30
0.0
 11
2.5
 21
0.0
 31
0.0
  0
LINE
  5
8E
330
87
100
AcDbEntity
  8
FORMAT
 62
     0
100
AcDbLine
 10
0.0
 20
5.0
 30
0.0
 11
0.0
 21
162.5
 31
0.0
  0
LINE
  5
8F
330
87
100
AcDbEntity
  8
FORMAT
 62
     0
100
AcDbLine
 10
-5.0
 20
0.0
 30
0.0
 11
-162.5
 21
0.0
 31
0.0
  0
LINE
  5
90
330
87
100
AcDbEntity
  8
FORMAT
 62
     0
100
AcDbLine
 10
0.0
 20
-5.0
 30
0.0
 11
0.0
 21
-162.5
 31
0.0
  0
LINE
  5
91
330
87
100
AcDbEntity
  8
FORMAT
 62
     0
100
AcDbLine
 10
5.0
 20
0.0
 30
0.0
 11
162.5
 21
0.0
 31
0.0
  0
ENDBLK
  5
89
330
87
100
AcDbEntity
  8
0
100
AcDbBlockEnd
  0
ENDSEC
  0
SECTION
  2
ENTITIES
  0
CIRCLE
  5
83
330
1F
100
AcDbEntity
  8
0
  6
Continuous
 62
     7
370
    25
100
AcDbCircle
 10
142.9934680851
 20
111.8029632112
 30
0.0
 40
125.0
  0
CIRCLE
  5
84
330
1F
100
AcDbEntity
  8
0
  6
Continuous
 62
     7
370
    25
100
AcDbCircle
 10
142.9934680851
 20
111.8029632112
 30
0.0
 40
102.3
  0
CIRCLE
  5
85
330
1F
100
AcDbEntity
  8
0
  6
Continuous
 62
     7
370
    25
100
AcDbCircle
 10
142.9934680851
 20
111.8029632112
 30
0.0
 40
144.0
  0
CIRCLE
  5
86
330
1F
100
AcDbEntity
  8
0
  6
Continuous
 62
     7
370
    25
100
AcDbCircle
 10
142.9934680851
 20
111.8029632112
 30
0.0
 40
160.0
  0
INSERT
  5
92
330
1F
100
AcDbEntity
  8
FORMAT
 62
     7
100
AcDbBlockReference
  2
SW_CENTERMARKSYMBOL_0
 10
142.9934680851
 20
111.8029632112
 30
0.0
  0
LINE
  5
93
330
1F
100
AcDbEntity
  8
0
  6
Continuous
 62
     7
370
    25
100
AcDbLine
 10
302.9934680851
 20
319.8384321616
 30
0.0
 11
302.9934680851
 21
354.8384321616
 31
0.0
  0
LINE
  5
94
330
1F
100
AcDbEntity
  8
0
  6
Continuous
 62
     7
370
    25
100
AcDbLine
 10
-17.0065319149
 20
354.8384321616
 30
0.0
 11
-17.0065319149
 21
319.8384321616
 31
0.0
  0
LINE
  5
95
330
1F
100
AcDbEntity
  8
0
  6
Continuous
 62
     7
370
    25
100
AcDbLine
 10
286.9934680851
 20
354.8384321616
 30
0.0
 11
267.9934680851
 21
384.8384321616
 31
0.0
  0
LINE
  5
96
330
1F
100
AcDbEntity
  8
0
  6
Continuous
 62
     7
370
    25
100
AcDbLine
 10
17.9934680851
 20
384.8384321616
 30
0.0
 11
-1.0065319149
 21
354.8384321616
 31
0.0
  0
LINE
  5
97
330
1F
100
AcDbEntity
  8
0
  6
Continuous
 62
     7
370
    25
100
AcDbLine
 10
267.9934680851
 20
384.8384321616
 30
0.0
 11
267.9934680851
 21
524.8384321616
 31
0.0
  0
LINE
  5
98
330
1F
100
AcDbEntity
  8
0
  6
Continuous
 62
     7
370
    25
100
AcDbLine
 10
17.9934680851
 20
524.8384321616
 30
0.0
 11
17.9934680851
 21
384.8384321616
 31
0.0
  0
LINE
  5
99
330
1F
100
AcDbEntity
  8
0
  6
Continuous
 62
     7
370
    25
100
AcDbLine
 10
302.9934680851
 20
319.8384321616
 30
0.0
 11
-17.0065319149
 21
319.8384321616
 31
0.0
  0
LINE
  5
9A
330
1F
100
AcDbEntity
  8
0
  6
Continuous
 62
     7
370
    25
100
AcDbLine
 10
302.9934680851
 20
354.8384321616
 30
0.0
 11
-17.0065319149
 21
354.8384321616
 31
0.0
  0
LINE
  5
9B
330
1F
100
AcDbEntity
  8
0
  6
Continuous
 62
     7
370
    25
100
AcDbLine
 10
267.9934680851
 20
384.8384321616
 30
0.0
 11
17.9934680851
 21
384.8384321616
 31
0.0
  0
LINE
  5
9C
330
1F
100
AcDbEntity
  8
0
  6
Continuous
 62
     7
370
    25
100
AcDbLine
 10
267.9934680851
 20
524.8384321616
 30
0.0
 11
17.9934680851
 21
524.8384321616
 31
0.0
  0
LINE
  5
9D
330
1F
100
AcDbEntity
  8
0
  6
Continuous
 62
     7
370
    25
100
AcDbLine
 10
-85.1889559577
 20
271.8029632112
 30
0.0
 11
-120.1889559577
 21
271.8029632112
 31
0.0
  0
LINE
  5
9E
330
1F
100
AcDbEntity
  8
0
  6
Continuous
 62
     7
370
    25
100
AcDbLine
 10
-120.1889559577
 20
-48.1970367888
 30
0.0
 11
-85.1889559577
 21
-48.1970367888
 31
0.0
  0
LINE
  5
9F
330
1F
100
AcDbEntity
  8
0
  6
Continuous
 62
     7
370
    25
100
AcDbLine
 10
-120.1889559577
 20
255.8029632112
 30
0.0
 11
-150.1889559577
 21
236.8029632112
 31
0.0
  0
LINE
  5
A0
330
1F
100
AcDbEntity
  8
0
  6
Continuous
 62
     7
370
    25
100
AcDbLine
 10
-150.1889559577
 20
-13.1970367888
 30
0.0
 11
-120.1889559577
 21
-32.1970367888
 31
0.0
  0
LINE
  5
A1
330
1F
100
AcDbEntity
  8
0
  6
Continuous
 62
     7
370
    25
100
AcDbLine
 10
-150.1889559577
 20
236.8029632112
 30
0.0
 11
-290.1889559577
 21
236.8029632112
 31
0.0
  0
LINE
  5
A2
330
1F
100
AcDbEntity
  8
0
  6
Continuous
 62
     7
370
    25
100
AcDbLine
 10
-290.1889559577
 20
-13.1970367888
 30
0.0
 11
-150.1889559577
 21
-13.1970367888
 31
0.0
  0
LINE
  5
A3
330
1F
100
AcDbEntity
  8
0
  6
Continuous
 62
     7
370
    25
100
AcDbLine
 10
-85.1889559577
 20
271.8029632112
 30
0.0
 11
-85.1889559577
 21
-48.1970367888
 31
0.0
  0
LINE
  5
A4
330
1F
100
AcDbEntity
  8
0
  6
Continuous
 62
     7
370
    25
100
AcDbLine
 10
-120.1889559577
 20
271.8029632112
 30
0.0
 11
-120.1889559577
 21
-48.1970367888
 31
0.0
  0
LINE
  5
A5
330
1F
100
AcDbEntity
  8
0
  6
Continuous
 62
     7
370
    25
100
AcDbLine
 10
-150.1889559577
 20
236.8029632112
 30
0.0
 11
-150.1889559577
 21
-13.1970367888
 31
0.0
  0
LINE
  5
A6
330
1F
100
AcDbEntity
  8
0
  6
Continuous
 62
     7
370
    25
100
AcDbLine
 10
-290.1889559577
 20
236.8029632112
 30
0.0
 11
-290.1889559577
 21
-13.1970367888
 31
0.0
  0
LINE
  5
A7
330
1F
100
AcDbEntity
  8
0
  6
Continuous
 62
     7
370
    25
100
AcDbLine
 10
354.2947724303
 20
-48.1970367888
 30
0.0
 11
389.2947724303
 21
-48.1970367888
 31
0.0
  0
LINE
  5
A8
330
1F
100
AcDbEntity
  8
0
  6
Continuous
 62
     7
370
    25
100
AcDbLine
 10
389.2947724303
 20
271.8029632112
 30
0.0
 11
354.2947724303
 21
271.8029632112
 31
0.0
  0
LINE
  5
A9
330
1F
100
AcDbEntity
  8
0
  6
Continuous
 62
     7
370
    25
100
AcDbLine
 10
389.2947724303
 20
-32.1970367888
 30
0.0
 11
419.2947724303
 21
-13.1970367888
 31
0.0
  0
LINE
  5
AA
330
1F
100
AcDbEntity
  8
0
  6
Continuous
 62
     7
370
    25
100
AcDbLine
 10
419.2947724303
 20
236.8029632112
 30
0.0
 11
389.2947724303
 21
255.8029632112
 31
0.0
  0
LINE
  5
AB
330
1F
100
AcDbEntity
  8
0
  6
Continuous
 62
     7
370
    25
100
AcDbLine
 10
419.2947724303
 20
-13.1970367888
 30
0.0
 11
559.2947724303
 21
-13.1970367888
 31
0.0
  0
LINE
  5
AC
330
1F
100
AcDbEntity
  8
0
  6
Continuous
 62
     7
370
    25
100
AcDbLine
 10
559.2947724303
 20
236.8029632112
 30
0.0
 11
419.2947724303
 21
236.8029632112
 31
0.0
  0
LINE
  5
AD
330
1F
100
AcDbEntity
  8
0
  6
Continuous
 62
     7
370
    25
100
AcDbLine
 10
354.2947724303
 20
111.8029632112
 30
0.0
 11
354.2947724303
 21
271.8029632112
 31
0.0
  0
LINE
  5
AE
330
1F
100
AcDbEntity
  8
0
  6
Continuous
 62
     7
370
    25
100
AcDbLine
 10
354.2947724303
 20
-48.1970367888
 30
0.0
 11
354.2947724303
 21
111.8029632112
 31
0.0
  0
LINE
  5
AF
330
1F
100
AcDbEntity
  8
0
  6
Continuous
 62
     7
370
    25
100
AcDbLine
 10
389.2947724303
 20
111.8029632112
 30
0.0
 11
389.2947724303
 21
271.8029632112
 31
0.0
  0
LINE
  5
B0
330
1F
100
AcDbEntity
  8
0
  6
Continuous
 62
     7
370
    25
100
AcDbLine
 10
389.2947724303
 20
-48.1970367888
 30
0.0
 11
389.2947724303
 21
111.8029632112
 31
0.0
  0
LINE
  5
B1
330
1F
100
AcDbEntity
  8
0
  6
Continuous
 62
     7
370
    25
100
AcDbLine
 10
419.2947724303
 20
111.8029632112
 30
0.0
 11
419.2947724303
 21
236.8029632112
 31
0.0
  0
LINE
  5
B2
330
1F
100
AcDbEntity
  8
0
  6
Continuous
 62
     7
370
    25
100
AcDbLine
 10
419.2947724303
 20
-13.1970367888
 30
0.0
 11
419.2947724303
 21
111.8029632112
 31
0.0
  0
LINE
  5
B3
330
1F
100
AcDbEntity
  8
0
  6
Continuous
 62
     7
370
    25
100
AcDbLine
 10
559.2947724303
 20
111.8029632112
 30
0.0
 11
559.2947724303
 21
236.8029632112
 31
0.0
  0
LINE
  5
B4
330
1F
100
AcDbEntity
  8
0
  6
Continuous
 62
     7
370
    25
100
AcDbLine
 10
559.2947724303
 20
-13.1970367888
 30
0.0
 11
559.2947724303
 21
111.8029632112
 31
0.0
  0
LINE
  5
B5
330
1F
100
AcDbEntity
  8
0
  6
Continuous
 62
     7
370
    25
100
AcDbLine
 10
-17.0065319149
 20
-112.0720324499
 30
0.0
 11
-17.0065319149
 21
-147.0720324499
 31
0.0
  0
LINE
  5
B6
330
1F
100
AcDbEntity
  8
0
  6
Continuous
 62
     7
370
    25
100
AcDbLine
 10
302.9934680851
 20
-147.0720324499
 30
0.0
 11
302.9934680851
 21
-112.0720324499
 31
0.0
  0
LINE
  5
B7
330
1F
100
AcDbEntity
  8
0
  6
Continuous
 62
     7
370
    25
100
AcDbLine
 10
-1.0065319149
 20
-147.0720324499
 30
0.0
 11
17.9934680851
 21
-177.0720324499
 31
0.0
  0
LINE
  5
B8
330
1F
100
AcDbEntity
  8
0
  6
Continuous
 62
     7
370
    25
100
AcDbLine
 10
267.9934680851
 20
-177.0720324499
 30
0.0
 11
286.9934680851
 21
-147.0720324499
 31
0.0
  0
LINE
  5
B9
330
1F
100
AcDbEntity
  8
0
  6
Continuous
 62
     7
370
    25
100
AcDbLine
 10
17.9934680851
 20
-177.0720324499
 30
0.0
 11
17.9934680851
 21
-317.0720324499
 31
0.0
  0
LINE
  5
BA
330
1F
100
AcDbEntity
  8
0
  6
Continuous
 62
     7
370
    25
100
AcDbLine
 10
267.9934680851
 20
-317.0720324499
 30
0.0
 11
267.9934680851
 21
-177.0720324499
 31
0.0
  0
LINE
  5
BB
330
1F
100
AcDbEntity
  8
0
  6
Continuous
 62
     7
370
    25
100
AcDbLine
 10
-17.0065319149
 20
-112.0720324499
 30
0.0
 11
302.9934680851
 21
-112.0720324499
 31
0.0
  0
LINE
  5
BC
330
1F
100
AcDbEntity
  8
0
  6
Continuous
 62
     7
370
    25
100
AcDbLine
 10
-17.0065319149
 20
-147.0720324499
 30
0.0
 11
302.9934680851
 21
-147.0720324499
 31
0.0
  0
LINE
  5
BD
330
1F
100
AcDbEntity
  8
0
  6
Continuous
 62
     7
370
    25
100
AcDbLine
 10
17.9934680851
 20
-177.0720324499
 30
0.0
 11
267.9934680851
 21
-177.0720324499
 31
0.0
  0
LINE
  5
BE
330
1F
100
AcDbEntity
  8
0
  6
Continuous
 62
     7
370
    25
100
AcDbLine
 10
17.9934680851
 20
-317.0720324499
 30
0.0
 11
267.9934680851
 21
-317.0720324499
 31
0.0
  0
LINE
  5
BF
330
1F
100
AcDbEntity
  8
0
  6
Continuous
 62
     7
370
    25
100
AcDbLine
 10
441.2635857477
 20
-145.7230146052
 30
0.0
 11
375.9262312975
 21
-209.4942755578
 31
0.0
  0
LINE
  5
C0
330
1F
100
AcDbEntity
  8
0
  6
Continuous
 62
     7
370
    25
100
AcDbLine
 10
550.5457709602
 20
-388.4021187844
 30
0.0
 11
615.8831254104
 21
-324.6308578318
 31
0.0
  0
LINE
  5
C1
330
1F
100
AcDbEntity
  8
0
  6
Continuous
 62
     7
370
    25
100
AcDbLine
 10
447.1520504754
 20
-91.0678311112
 30
0.0
 11
430.8177118629
 21
-107.0106463494
 31
0.0
  0
LINE
  5
C2
330
1F
100
AcDbEntity
  8
0
  6
Continuous
 62
     7
370
    25
100
AcDbLine
 10
654.3307226311
 20
-336.0126856794
 30
0.0
 11
670.6650612436
 21
-320.0698704413
 31
0.0
  0
LWPOLYLINE
  5
C3
330
1F
100
AcDbEntity
  8
0
  6
Continuous
 62
     7
370
    25
100
AcDbPolyline
 90
      121
 70
   128
 43
0.0
 10
352.6837359192
 20
-268.9024603356
 10
352.8352439565
 20
-263.3360531809
 10
353.2893527953
 20
-257.8672564376
 10
354.0448177549
 20
-252.5110596972
 10
355.0995681583
 20
-247.2821439229
 10
356.4507130081
 20
-242.1948412092
 10
358.09454891
 20
-237.2630954994
 10
360.0265702242
 20
-232.5004243656
 10
362.2414814145
 20
-227.9198819583
 10
364.7332115632
 20
-223.5340232259
 10
367.4949310114
 20
-219.3548695023
 10
370.5190700778
 20
-215.3938755574
 10
373.7973398076
 20
-211.6618982002
 10
377.3207546912
 20
-208.1691665213
 10
381.0796572935
 20
-204.9252538555
 10
385.0637447236
 20
-201.9390515418
 10
389.2620968748
 20
-199.2187445532
 10
393.6632063557
 20
-196.7717890622
 10
398.2550100311
 20
-194.6048920037
 10
403.0249220863
 20
-192.7239926917
 10
407.959868524
 20
-191.1342465407
 10
413.046322999
 20
-189.8400109343
 10
418.2703438931
 20
-188.8448332824
 10
423.6176125281
 20
-188.1514412977
 10
429.0734724124
 20
-187.7617355195
 10
434.6229694134
 20
-187.6767841041
 10
440.2508927454
 20
-187.8968198976
 10
445.9418166618
 20
-188.4212397972
 10
451.6801427357
 20
-189.2486064042
 10
457.4501426143
 20
-190.3766519644
 10
463.2360011289
 20
-191.8022845834
 10
469.0218596434
 20
-193.5215967011
 10
474.791859522
 20
-195.5298758025
 10
480.5301855959
 20
-197.8216173344
 10
486.2211095123
 20
-200.3905397923
 10
491.8490328444
 20
-203.2296019385
 10
497.3985298453
 20
-206.3310221008
 10
502.8543897296
 20
-209.6862995023
 10
508.2016583647
 20
-213.2862375608
 10
513.4256792587
 20
-217.1209690963
 10
518.5121337337
 20
-221.1799833762
 10
523.4470801714
 20
-225.4521549245
 10
528.2169922266
 20
-229.925774016
 10
532.8087959021
 20
-234.5885787716
 10
537.209905383
 20
-239.4277887677
 10
541.4082575342
 20
-244.430140066
 10
545.3923449642
 20
-249.5819215694
 10
549.1512475665
 20
-254.8690126027
 10
552.6746624501
 20
-260.276921617
 10
555.9529321799
 20
-265.7908259097
 10
558.9770712464
 20
-271.3956122522
 10
561.7387906945
 20
-277.0759183148
 10
564.2305208433
 20
-282.8161747735
 10
566.4454320336
 20
-288.6006479842
 10
568.3774533477
 20
-294.413483108
 10
570.0212892497
 20
-300.2387475678
 10
571.3724340994
 20
-306.0604747187
 10
572.4271845028
 20
-311.8627076112
 10
573.1826494625
 20
-317.6295427283
 10
573.6367583013
 20
-323.3451735757
 10
573.7882663385
 20
-328.9939340066
 10
573.6367583013
 20
-334.5603411613
 10
573.1826494625
 20
-340.0291379047
 10
572.4271845028
 20
-345.385334645
 10
571.3724340994
 20
-350.6142504194
 10
570.0212892497
 20
-355.701553133
 10
568.3774533477
 20
-360.6332988428
 10
566.4454320336
 20
-365.3959699767
 10
564.2305208433
 20
-369.976512384
 10
561.7387906945
 20
-374.3623711164
 10
558.9770712464
 20
-378.54152484
 10
555.9529321799
 20
-382.5025187849
 10
552.6746624501
 20
-386.2344961421
 10
549.1512475665
 20
-389.727227821
 10
545.3923449642
 20
-392.9711404868
 10
541.4082575342
 20
-395.9573428005
 10
537.209905383
 20
-398.677649789
 10
532.8087959021
 20
-401.12460528
 10
528.2169922266
 20
-403.2915023386
 10
523.4470801714
 20
-405.1724016505
 10
518.5121337337
 20
-406.7621478015
 10
513.4256792587
 20
-408.0563834079
 10
508.2016583647
 20
-409.0515610599
 10
502.8543897296
 20
-409.7449530446
 10
497.3985298453
 20
-410.1346588228
 10
491.8490328444
 20
-410.2196102381
 10
486.2211095123
 20
-409.9995744446
 10
480.5301855959
 20
-409.4751545451
 10
474.791859522
 20
-408.647787938
 10
469.0218596434
 20
-407.5197423778
 10
463.2360011289
 20
-406.0941097589
 10
457.4501426143
 20
-404.3747976412
 10
451.6801427357
 20
-402.3665185397
 10
445.9418166618
 20
-400.0747770079
 10
440.2508927454
 20
-397.50585455
 10
434.6229694134
 20
-394.6667924038
 10
429.0734724124
 20
-391.5653722414
 10
423.6176125281
 20
-388.2100948399
 10
418.2703438931
 20
-384.6101567814
 10
413.046322999
 20
-380.775425246
 10
407.959868524
 20
-376.7164109661
 10
403.0249220863
 20
-372.4442394177
 10
398.2550100311
 20
-367.9706203263
 10
393.6632063557
 20
-363.3078155706
 10
389.2620968748
 20
-358.4686055745
 10
385.0637447236
 20
-353.4662542762
 10
381.0796572935
 20
-348.3144727729
 10
377.3207546912
 20
-343.0273817396
 10
373.7973398076
 20
-337.6194727252
 10
370.5190700778
 20
-332.1055684326
 10
367.4949310114
 20
-326.5007820901
 10
364.7332115632
 20
-320.8204760274
 10
362.2414814145
 20
-315.0802195688
 10
360.0265702242
 20
-309.2957463581
 10
358.09454891
 20
-303.4829112343
 10
356.4507130081
 20
-297.6576467744
 10
355.0995681583
 20
-291.8359196235
 10
354.0448177549
 20
-286.033686731
 10
353.2893527953
 20
-280.266851614
 10
352.8352439565
 20
-274.5512207665
 10
352.6837359192
 20
-268.9024603356
  0
LWPOLYLINE
  5
C4
330
1F
100
AcDbEntity
  8
0
  6
Continuous
 62
     7
370
    25
100
AcDbPolyline
 90
      110
 70
   128
 43
0.0
 10
372.7600272813
 20
-274.358766145
 10
372.9103033244
 20
-269.3477159372
 10
373.360632252
 20
-264.4349955514
 10
374.1095181166
 20
-259.6369245505
 10
375.1544731947
 20
-254.9694416438
 10
376.4920262506
 20
-250.4480517403
 10
378.1177340676
 20
-246.0877744424
 10
380.0261962078
 20
-241.9030941528
 10
382.2110729518
 20
-237.9079119587
 10
384.6651063589
 20
-234.1154994536
 10
387.3801443769
 20
-230.5384546502
 10
390.3471679225
 20
-227.1886601319
 10
393.5563208419
 20
-224.077243579
 10
396.9969426518
 20
-221.2145408045
 10
400.6576039526
 20
-218.6100614191
 10
404.5261443955
 20
-216.2724572414
 10
408.5897130784
 20
-214.2094935574
 10
412.8348112345
 20
-212.428023325
 10
417.2473370749
 20
-210.9339644091
 10
421.8126326324
 20
-209.7322799233
 10
426.5155324542
 20
-208.8269617424
 10
431.3404139801
 20
-208.2210172426
 10
436.271249439
 20
-207.9164593104
 10
441.2916590912
 20
-207.9142996567
 10
446.3849656408
 20
-208.2145454556
 10
451.5342496357
 20
-208.8161993209
 10
456.7224056723
 20
-209.7172626188
 10
461.9321992179
 20
-210.9147421076
 10
467.1463238623
 20
-212.4046598811
 10
472.3474588079
 20
-214.1820665821
 10
477.5183264073
 20
-216.2410578444
 10
482.6417495585
 20
-218.5747939059
 10
487.700708765
 20
-221.1755223304
 10
492.678398673
 20
-224.0346037593
 10
497.5582838972
 20
-227.1425406118
 10
502.3241539498
 20
-230.4890086343
 10
506.9601770896
 20
-234.0628911963
 10
511.4509529141
 20
-237.8523162196
 10
515.7815635174
 20
-241.8446956153
 10
519.9376230469
 20
-246.0267671004
 10
523.9053254905
 20
-250.3846382542
 10
527.6714905399
 20
-254.9038326668
 10
531.2236073735
 20
-259.569338029
 10
534.5498762163
 20
-264.3656560011
 10
537.6392475379
 20
-269.2768536971
 10
540.4814587573
 20
-274.2866166122
 10
543.0670683347
 20
-279.3783028179
 10
545.3874871351
 20
-284.5349982445
 10
547.4350069607
 20
-289.7395728684
 10
549.2028261564
 20
-294.9747376163
 10
550.6850722047
 20
-300.2231017971
 10
551.8768212333
 20
-305.467230873
 10
552.7741143718
 20
-310.6897043746
 10
553.3739709025
 20
-315.87317377
 10
553.6743981624
 20
-321.0004200952
 10
553.6743981624
 20
-326.0544111536
 10
553.3739709025
 20
-331.0183580951
 10
552.7741143718
 20
-335.8757711871
 10
551.8768212333
 20
-340.610514592
 10
550.6850722047
 20
-345.2068599681
 10
549.2028261564
 20
-349.6495387185
 10
547.4350069607
 20
-353.9237927111
 10
545.3874871351
 20
-358.015423304
 10
543.0670683347
 20
-361.9108385118
 10
540.4814587573
 20
-365.5970981569
 10
537.6392475379
 20
-369.0619568556
 10
534.5498762163
 20
-372.2939046957
 10
531.2236073735
 20
-375.2822054714
 10
527.6714905399
 20
-378.0169323482
 10
523.9053254905
 20
-380.4890008383
 10
519.9376230469
 20
-382.6901989789
 10
515.7815635174
 20
-384.613214611
 10
511.450952914
 20
-386.2516596702
 10
506.9601770896
 20
-387.6000914067
 10
502.3241539498
 20
-388.6540304658
 10
497.5582838972
 20
-389.4099757682
 10
492.678398673
 20
-389.8654161394
 10
487.700708765
 20
-390.0188386523
 10
482.6417495585
 20
-389.8697336529
 10
477.5183264073
 20
-389.4185964528
 10
472.3474588079
 20
-388.6669256846
 10
467.1463238623
 20
-387.6172183229
 10
461.9321992179
 20
-386.27296139
 10
456.7224056723
 20
-384.6386203722
 10
451.5342496357
 20
-382.7196243861
 10
446.3849656408
 20
-380.5223481434
 10
441.2916590912
 20
-378.0540907746
 10
436.271249439
 20
-375.3230515827
 10
431.3404139801
 20
-372.3383028051
 10
426.5155324542
 20
-369.1097594772
 10
421.8126326324
 20
-365.6481464951
 10
417.2473370749
 20
-361.9649629891
 10
412.8348112345
 20
-358.0724441244
 10
408.5897130784
 20
-353.9835204572
 10
404.5261443955
 20
-349.7117749807
 10
400.6576039526
 20
-345.2713980038
 10
396.9969426518
 20
-340.6771400123
 10
393.5563208419
 20
-335.9442626691
 10
390.3471679225
 20
-331.0884881169
 10
387.3801443769
 20
-326.1259467504
 10
384.6651063589
 20
-321.073123633
 10
382.2110729518
 20
-315.9468037349
 10
380.0261962078
 20
-310.7640161752
 10
378.1177340676
 20
-305.5419776531
 10
376.4920262506
 20
-300.2980352553
 10
375.1544731947
 20
-295.0496088311
 10
374.1095181166
 20
-289.8141331254
 10
373.360632252
 20
-284.6089998618
 10
372.9103033244
 20
-279.4514999697
 10
372.7600272813
 20
-274.358766145
  0
LWPOLYLINE
  5
C5
330
1F
100
AcDbEntity
  8
0
  6
Continuous
 62
     7
370
    25
100
AcDbPolyline
 90
       62
 70
   128
 43
0.0
 10
441.2635857477
 20
-145.7230146052
 10
442.6581091415
 20
-144.3979055687
 10
446.4170117437
 20
-141.1539929029
 10
450.4010991738
 20
-138.1677905892
 10
454.599451325
 20
-135.4474836006
 10
459.0005608059
 20
-133.0005281096
 10
463.5923644813
 20
-130.8336310511
 10
468.3622765366
 20
-128.9527317391
 10
473.2972229742
 20
-127.3629855881
 10
478.3836774492
 20
-126.0687499817
 10
483.6076983433
 20
-125.0735723298
 10
488.9549669783
 20
-124.3801803451
 10
494.4108268626
 20
-123.9904745669
 10
499.9603238636
 20
-123.9055231515
 10
505.5882471956
 20
-124.125558945
 10
511.279171112
 20
-124.6499788446
 10
517.017497186
 20
-125.4773454516
 10
522.7874970645
 20
-126.6053910118
 10
528.5733555791
 20
-128.0310236308
 10
534.3592140936
 20
-129.7503357485
 10
540.1292139722
 20
-131.7586148499
 10
545.8675400461
 20
-134.0503563818
 10
551.5584639626
 20
-136.6192788397
 10
557.1863872946
 20
-139.4583409859
 10
562.7358842955
 20
-142.5597611482
 10
568.1917441799
 20
-145.9150385497
 10
573.5390128149
 20
-149.5149766082
 10
578.763033709
 20
-153.3497081437
 10
583.8494881839
 20
-157.4087224236
 10
588.7844346216
 20
-161.6808939719
 10
593.5543466769
 20
-166.1545130634
 10
598.1461503523
 20
-170.817317819
 10
602.5472598332
 20
-175.6565278151
 10
606.7456119844
 20
-180.6588791134
 10
610.7296994145
 20
-185.8106606168
 10
614.4886020167
 20
-191.0977516501
 10
618.0120169004
 20
-196.5056606645
 10
621.2902866301
 20
-202.0195649571
 10
624.3144256966
 20
-207.6243512996
 10
627.0761451447
 20
-213.3046573622
 10
629.5678752935
 20
-219.0449138209
 10
631.7827864838
 20
-224.8293870316
 10
633.7148077979
 20
-230.6422221554
 10
635.3586436999
 20
-236.4674866152
 10
636.7097885496
 20
-242.2892137661
 10
637.7645389531
 20
-248.0914466586
 10
638.5200039127
 20
-253.8582817757
 10
638.9741127515
 20
-259.5739126231
 10
639.1256207888
 20
-265.222673054
 10
638.9741127515
 20
-270.7890802087
 10
638.5200039127
 20
-276.2578769521
 10
637.7645389531
 20
-281.6140736924
 10
636.7097885496
 20
-286.8429894668
 10
635.3586436999
 20
-291.9302921804
 10
633.7148077979
 20
-296.8620378902
 10
631.7827864838
 20
-301.6247090241
 10
629.5678752935
 20
-306.2052514314
 10
627.0761451447
 20
-310.5911101638
 10
624.3144256966
 20
-314.7702638874
 10
621.2902866301
 20
-318.7312578323
 10
618.0120169004
 20
-322.4632351895
 10
615.8831254104
 20
-324.6308578318
  0
LWPOLYLINE
  5
C6
330
1F
100
AcDbEntity
  8
0
  6
Continuous
 62
     7
370
    25
100
AcDbPolyline
 90
        3
 70
   128
 43
0.0
 10
432.914671325
 20
-215.6459894324
 10
433.0649473682
 20
-210.6349392247
 10
433.261872928
 20
-208.0656161405
  0
LWPOLYLINE
  5
C7
330
1F
100
AcDbEntity
  8
0
  6
Continuous
 62
     7
370
    25
100
AcDbPolyline
 90
       35
 70
   128
 43
0.0
 10
553.3647733735
 20
-331.1180014892
 10
552.8330427167
 20
-331.1526394268
 10
547.8553528087
 20
-331.3060619398
 10
542.7963936022
 20
-331.1569569403
 10
537.6729704511
 20
-330.7058197403
 10
532.5021028516
 20
-329.954148972
 10
527.300967906
 20
-328.9044416103
 10
522.0868432616
 20
-327.5601846774
 10
516.877049716
 20
-325.9258436597
 10
511.6888936795
 20
-324.0068476736
 10
506.5396096846
 20
-321.8095714308
 10
501.446303135
 20
-319.3413140621
 10
496.4258934827
 20
-316.6102748702
 10
491.4950580239
 20
-313.6255260926
 10
486.6701764979
 20
-310.3969827646
 10
481.9672766761
 20
-306.9353697825
 10
477.4019811186
 20
-303.2521862766
 10
472.9894552783
 20
-299.3596674118
 10
468.7443571221
 20
-295.2707437446
 10
464.6807884393
 20
-290.9989982681
 10
460.8122479963
 20
-286.5586212912
 10
457.1515866955
 20
-281.9643632997
 10
453.7109648856
 20
-277.2314859566
 10
450.5018119662
 20
-272.3757114044
 10
447.5347884206
 20
-267.4131700379
 10
444.8197504027
 20
-262.3603469204
 10
442.3657169955
 20
-257.2340270223
 10
440.1808402515
 20
-252.0512394626
 10
438.2723781113
 20
-246.8292009405
 10
436.6466702944
 20
-241.5852585427
 10
435.3091172385
 20
-236.3368321186
 10
434.2641621604
 20
-231.1013564128
 10
433.5152762958
 20
-225.8962231493
 10
433.0649473682
 20
-220.7387232571
 10
432.914671325
 20
-215.6459894324
  0
LWPOLYLINE
  5
C8
330
1F
100
AcDbEntity
  8
0
  6
Continuous
 62
     7
370
    25
100
AcDbPolyline
 90
       88
 70
   128
 43
0.0
 10
416.4792916571
 20
-169.9132454354
 10
416.5751959737
 20
-169.2959752353
 10
417.6274485069
 20
-163.6576976665
 10
418.9760609713
 20
-158.1566433189
 10
420.6178346071
 20
-152.8058600854
 10
422.5488753085
 20
-147.618039433
 10
424.7646028604
 20
-142.6054862988
 10
427.2597618019
 20
-137.7800899053
 10
430.0284338915
 20
-133.1532955595
 10
433.064052145
 20
-128.7360775065
 10
436.3594164113
 20
-124.5389128994
 10
439.9067104503
 20
-120.5717569489
 10
443.6975204726
 20
-116.8440193108
 10
447.7228550956
 20
-113.3645417668
 10
451.9731666703
 20
-110.1415772532
 10
456.4383739272
 20
-107.1827702858
 10
461.107885888
 20
-104.4951388279
 10
465.9706269863
 20
-102.0850576442
 10
471.0150633374
 20
-99.9582431812
 10
476.2292300956
 20
-98.1197400077
 10
481.6007598334
 20
-96.5739088502
 10
487.1169118757
 20
-95.3244162493
 10
492.7646025194
 20
-94.3742258634
 10
498.5304360661
 20
-93.7255914393
 10
504.4007365958
 20
-93.380051466
 10
510.3615804041
 20
-93.3384255263
 10
516.3988290281
 20
-93.6008123522
 10
522.4981627811
 20
-94.1665895912
 10
528.6451147172
 20
-95.0344152822
 10
534.8251049456
 20
-96.2022310385
 10
541.0234752122
 20
-97.6672669301
 10
547.2255236677
 20
-99.4260480539
 10
553.4165397381
 20
-101.4744027752
 10
559.5818390176
 20
-103.807472623
 10
565.7067980972
 20
-106.4197238134
 10
571.7768892507
 20
-109.3049603752
 10
577.7777148926
 20
-112.4563388459
 10
583.6950417275
 20
-115.8663845041
 10
589.5148345097
 20
-119.5270090982
 10
595.2232893339
 20
-123.429530031
 10
600.8068663759
 20
-127.5646909541
 10
606.2523220078
 20
-131.9226837226
 10
611.5467402104
 20
-136.4931716592
 10
616.6775632088
 20
-141.2653140715
 10
621.6326212576
 20
-146.2277919647
 10
626.4001615066
 20
-151.3688348898
 10
630.968875877
 20
-156.6762488607
 10
635.3279278832
 20
-162.1374452781
 10
639.4669783353
 20
-167.7394707872
 10
643.3762098629
 20
-173.4690380026
 10
647.0463502009
 20
-179.3125570238
 10
650.4686941818
 20
-185.2561676694
 10
653.6351243837
 20
-191.2857723514
 10
656.5381303841
 20
-197.3870695138
 10
659.1708265734
 20
-203.5455875537
 10
661.5269684872
 20
-209.7467191468
 10
663.6009676172
 20
-215.9757558942
 10
665.3879046665
 20
-222.2179232086
 10
666.8835412179
 20
-228.4584153591
 10
668.0843297868
 20
-234.6824305876
 10
668.9874222353
 20
-240.8752062176
 10
669.5906765278
 20
-247.0220536697
 10
669.892661812
 20
-253.1083933006
 10
669.892661812
 20
-259.1197889852
 10
669.5906765278
 20
-265.0419823572
 10
668.9874222353
 20
-270.8609266281
 10
668.0843297868
 20
-276.5628199051
 10
666.8835412179
 20
-282.1341379271
 10
665.3879046665
 20
-287.5616661434
 10
663.6009676172
 20
-292.8325310568
 10
661.5269684872
 20
-297.9342307579
 10
659.1708265734
 20
-302.8546645787
 10
656.5381303841
 20
-307.5821617938
 10
653.6351243837
 20
-312.1055093022
 10
650.4686941818
 20
-316.4139782232
 10
647.0463502009
 20
-320.4973493447
 10
643.3762098629
 20
-324.3459373614
 10
639.4669783353
 20
-327.9506138477
 10
635.3279278832
 20
-331.3028289093
 10
630.968875877
 20
-334.3946314625
 10
626.4001615066
 20
-337.2186880931
 10
621.6326212576
 20
-339.7683004509
 10
616.6775632088
 20
-342.0374211369
 10
611.5467402104
 20
-344.0206680477
 10
606.2523220078
 20
-345.7133371406
 10
600.8068663759
 20
-347.1114135917
 10
595.2232893339
 20
-348.211581318
 10
591.0988313198
 20
-348.821088662
  0
LWPOLYLINE
  5
C9
330
1F
100
AcDbEntity
  8
0
  6
Continuous
 62
     7
370
    25
100
AcDbPolyline
 90
       26
 70
   128
 43
0.0
 10
553.3269869131
 20
-315.3522640599
 10
548.6441173835
 20
-313.7659912167
 10
542.8102897876
 20
-311.5277465201
 10
537.0184607298
 20
-309.0130671627
 10
531.2837404309
 20
-306.2285136559
 10
525.6210901212
 20
-303.1813505817
 10
520.0452830089
 20
-299.8795276409
 10
514.5708657381
 20
-296.3316589123
 10
509.2121204385
 20
-292.5470003805
 10
503.9830274646
 20
-288.5354257873
 10
498.8972289229
 20
-284.307400873
 10
493.9679930813
 20
-279.8739560717
 10
489.2081797531
 20
-275.2466577347
 10
484.6302067479
 20
-270.4375779551
 10
480.2460174745
 20
-265.4592630729
 10
476.0670497823
 20
-260.3247009432
 10
472.1042061206
 20
-255.0472870524
 10
468.3678250963
 20
-249.6407895707
 10
464.8676545007
 20
-244.1193134327
 10
461.6128258793
 20
-238.4972635393
 10
458.6118307084
 20
-232.7893071767
 10
455.8724982416
 20
-227.0103357514
 10
453.4019750847
 20
-221.1754259399
 10
451.2067065504
 20
-215.2998003557
 10
449.2924198437
 20
-209.3987878352
 10
449.0220549927
 20
-208.4858134677
  0
LWPOLYLINE
  5
CA
330
1F
100
AcDbEntity
  8
0
  6
Continuous
 62
     7
370
    25
100
AcDbPolyline
 90
       99
 70
   128
 43
0.0
 10
401.080698316
 20
-184.942744602
 10
401.0673177786
 20
-183.053122865
 10
401.218309206
 20
-176.7602470061
 10
401.6709612648
 20
-170.5628729306
 10
402.4243079727
 20
-164.4742261471
 10
403.4767416499
 20
-158.5073001347
 10
404.8260163499
 20
-152.6748286143
 10
406.4692526524
 20
-146.9892583739
 10
408.4029438084
 20
-141.4627227069
 10
410.6229632236
 20
-136.1070155191
 10
413.1245732645
 20
-130.9335661595
 10
415.9024353694
 20
-125.9534150296
 10
418.9506214405
 20
-121.177190023
 10
422.262626495
 20
-116.6150838445
 10
425.8313825473
 20
-112.2768322587
 10
429.6492736922
 20
-108.1716933131
 10
433.7081523575
 20
-104.308427581
 10
437.9993566916
 20
-100.6952794662
 10
442.5137290482
 20
-97.3399596088
 10
447.2416355292
 20
-94.2496284306
 10
452.1729865439
 20
-91.430880854
 10
457.2972583407
 20
-88.8897322284
 10
462.6035154654
 20
-86.631605493
 10
468.0804340978
 20
-84.6613196041
 10
473.7163262176
 20
-82.983079251
 10
479.4991645469
 20
-81.6004658833
 10
485.4166082174
 20
-80.5164300675
 10
491.456029106
 20
-79.7332851907
 10
497.6045387843
 20
-79.2527025235
 10
503.8490160226
 20
-79.0757076536
 10
510.176134792
 20
-79.2026782969
 10
516.5723927019
 20
-79.6333434917
 10
523.0241398159
 20
-80.3667841768
 10
529.5176077803
 20
-81.4014351528
 10
536.0389392073
 20
-82.7350884223
 10
542.574217247
 20
-84.3648979021
 10
549.1094952867
 20
-86.2873854965
 10
555.6308267137
 20
-88.4984485203
 10
562.1242946781
 20
-90.9933684534
 10
568.576041792
 20
-93.766821011
 10
574.972299702
 20
-96.8128875056
 10
581.2994184713
 20
-100.1250674778
 10
587.5438957097
 20
-103.6962925685
 10
593.6924053879
 20
-107.5189416035
 10
599.7318262766
 20
-111.5848568571
 10
605.6492699471
 20
-115.8853614612
 10
611.4321082764
 20
-120.4112779223
 10
617.0680003962
 20
-125.1529477066
 10
622.5449190286
 20
-130.1002518518
 10
627.8511761533
 20
-135.2426325615
 10
632.9754479501
 20
-140.5691157361
 10
637.9067989648
 20
-146.0683343922
 10
642.6347054458
 20
-151.7285529199
 10
647.1490778024
 20
-157.5376921277
 10
651.4402821365
 20
-163.4833550197
 10
655.4991608018
 20
-169.5528532518
 10
659.3170519466
 20
-175.7332342088
 10
662.885807999
 20
-182.0113086462
 10
666.1978130535
 20
-188.3736788369
 10
669.2459991246
 20
-194.8067671623
 10
672.0238612294
 20
-201.2968450876
 10
674.5254712704
 20
-207.8300624595
 10
676.7454906855
 20
-214.3924770629
 10
678.6791818416
 20
-220.9700843742
 10
680.3224181441
 20
-227.5488474481
 10
681.6716928441
 20
-234.1147268726
 10
682.7241265213
 20
-240.65371073
 10
683.4774732292
 20
-247.1518444994
 10
683.930125288
 20
-253.5952608357
 10
684.0811167154
 20
-259.9702091638
 10
683.930125288
 20
-266.2630850227
 10
683.4774732292
 20
-272.4604590982
 10
682.7241265213
 20
-278.5491058817
 10
681.6716928441
 20
-284.5160318941
 10
680.3224181441
 20
-290.3485034145
 10
678.6791818416
 20
-296.0340736549
 10
676.7454906855
 20
-301.5606093219
 10
674.5254712704
 20
-306.9163165097
 10
672.0238612294
 20
-312.0897658694
 10
669.2459991246
 20
-317.0699169992
 10
666.1978130535
 20
-321.8461420058
 10
662.885807999
 20
-326.4082481843
 10
659.3170519466
 20
-330.7464997701
 10
655.4991608018
 20
-334.8516387157
 10
651.4402821365
 20
-338.7149044478
 10
647.1490778024
 20
-342.3280525626
 10
642.6347054458
 20
-345.68337242
 10
637.9067989648
 20
-348.7737035982
 10
632.9754479501
 20
-351.5924511748
 10
627.8511761533
 20
-354.1335998004
 10
622.5449190286
 20
-356.3917265358
 10
617.0680003962
 20
-358.3620124247
 10
611.4321082764
 20
-360.0402527778
 10
605.6492699471
 20
-361.4228661455
 10
599.7318262766
 20
-362.5069019613
 10
593.6924053879
 20
-363.2900468381
 10
587.5438957097
 20
-363.7706295053
 10
581.2994184713
 20
-363.9476243752
 10
575.7002379786
 20
-363.8505878286
  0
LWPOLYLINE
  5
CB
330
1F
100
AcDbEntity
  8
0
  6
Continuous
 62
     7
370
    25
100
AcDbPolyline
 90
       70
 70
   128
 43
0.0
 10
447.1520504754
 20
-91.0678311112
 10
450.04249097
 20
-88.3656123428
 10
454.3336953041
 20
-84.752464228
 10
458.8480676608
 20
-81.3971443707
 10
463.5759741417
 20
-78.3068131925
 10
468.5073251564
 20
-75.4880656159
 10
473.6315969532
 20
-72.9469169903
 10
478.9378540779
 20
-70.6887902549
 10
484.4147727103
 20
-68.7185043659
 10
490.0506648301
 20
-67.0402640129
 10
495.8335031595
 20
-65.6576506451
 10
501.75094683
 20
-64.5736148293
 10
507.7903677186
 20
-63.7904699525
 10
513.9388773968
 20
-63.3098872853
 10
520.1833546352
 20
-63.1328924154
 10
526.5104734045
 20
-63.2598630588
 10
532.9067313145
 20
-63.6905282536
 10
539.3584784284
 20
-64.4239689387
 10
545.8519463928
 20
-65.4586199146
 10
552.3732778198
 20
-66.7922731841
 10
558.9085558595
 20
-68.4220826639
 10
565.4438338992
 20
-70.3445702584
 10
571.9651653262
 20
-72.5556332821
 10
578.4586332906
 20
-75.0505532153
 10
584.9103804046
 20
-77.8240057729
 10
591.3066383146
 20
-80.8700722675
 10
597.6337570839
 20
-84.1822522396
 10
603.8782343222
 20
-87.7534773304
 10
610.0267440005
 20
-91.5761263654
 10
616.0661648891
 20
-95.642041619
 10
621.9836085596
 20
-99.9425462231
 10
627.766446889
 20
-104.4684626842
 10
633.4023390087
 20
-109.2101324685
 10
638.8792576412
 20
-114.1574366136
 10
644.1855147658
 20
-119.2998173233
 10
649.3097865626
 20
-124.626300498
 10
654.2411375773
 20
-130.125519154
 10
658.9690440583
 20
-135.7857376817
 10
663.4834164149
 20
-141.5948768895
 10
667.774620749
 20
-147.5405397816
 10
671.8334994143
 20
-153.6100380136
 10
675.6513905592
 20
-159.7904189706
 10
679.2201466115
 20
-166.0684934081
 10
682.5321516661
 20
-172.4308635988
 10
685.5803377371
 20
-178.8639519242
 10
688.358199842
 20
-185.3540298495
 10
690.8598098829
 20
-191.8872472214
 10
693.0798292981
 20
-198.4496618247
 10
695.0135204541
 20
-205.0272691361
 10
696.6567567567
 20
-211.60603221
 10
698.0060314566
 20
-218.1719116344
 10
699.0584651338
 20
-224.7108954919
 10
699.8118118418
 20
-231.2090292612
 10
700.2644639005
 20
-237.6524455976
 10
700.4154553279
 20
-244.0273939257
 10
700.2644639005
 20
-250.3202697846
 10
699.8118118418
 20
-256.5176438601
 10
699.0584651338
 20
-262.6062906435
 10
698.0060314566
 20
-268.5732166559
 10
696.6567567567
 20
-274.4056881764
 10
695.0135204541
 20
-280.0912584168
 10
693.0798292981
 20
-285.6177940837
 10
690.8598098829
 20
-290.9735012715
 10
688.358199842
 20
-296.1469506312
 10
685.5803377371
 20
-301.1271017611
 10
682.5321516661
 20
-305.9033267677
 10
679.2201466115
 20
-310.4654329461
 10
675.6513905592
 20
-314.8036845319
 10
671.8334994143
 20
-318.9088234776
 10
670.6650612436
 20
-320.0698704413
  0
ENDSEC
  0
SECTION
  2
OBJECTS
  0
DICTIONARY
  5
C
330
0
100
AcDbDictionary
281
     1
  3
ACAD_GROUP
350
D
  3
ACAD_LAYOUT
350
1A
  3
ACAD_MLINESTYLE
350
17
  3
ACAD_PLOTSETTINGS
350
19
  3
ACAD_PLOTSTYLENAME
350
E
  3
ACAD_SCALELIST
350
47
  0
DICTIONARY
  5
D
102
{ACAD_REACTORS
330
C
102
}
330
C
100
AcDbDictionary
281
     1
  0
DICTIONARY
  5
1A
102
{ACAD_REACTORS
330
C
102
}
330
C
100
AcDbDictionary
281
     1
  3
Layout1
350
1E
  3
Layout2
350
26
  3
Model
350
22
  0
DICTIONARY
  5
17
102
{ACAD_REACTORS
330
C
102
}
330
C
100
AcDbDictionary
281
     1
  3
Standard
350
18
  0
DICTIONARY
  5
19
102
{ACAD_REACTORS
330
C
102
}
330
C
100
AcDbDictionary
281
     1
  0
ACDBDICTIONARYWDFLT
  5
E
102
{ACAD_REACTORS
330
C
102
}
330
C
100
AcDbDictionary
281
     1
  3
Normal
350
F
100
AcDbDictionaryWithDefault
340
F
  0
DICTIONARY
  5
47
102
{ACAD_REACTORS
330
C
102
}
330
C
100
AcDbDictionary
281
     1
  3
A0
350
48
  3
A1
350
49
  3
A2
350
4A
  3
A3
350
4B
  3
A4
350
4C
  3
A5
350
4D
  3
A6
350
4E
  3
A7
350
4F
  3
A8
350
50
  3
A9
350
51
  3
B0
350
52
  3
B1
350
53
  3
B2
350
54
  3
B3
350
55
  3
B4
350
56
  3
B5
350
57
  3
B6
350
58
  3
B7
350
59
  3
B8
350
5A
  3
B9
350
5B
  3
C0
350
5C
  3
C1
350
5D
  3
C2
350
5E
  3
C3
350
5F
  3
C4
350
60
  3
C5
350
61
  3
C6
350
62
  3
C7
350
63
  3
C8
350
64
  3
C9
350
65
  3
D0
350
66
  3
D1
350
67
  3
D2
350
68
  0
LAYOUT
  5
1E
102
{ACAD_REACTORS
330
1A
102
}
330
1A
100
AcDbPlotSettings
  1

  2
none_device
  4

  6

 40
0.0
 41
0.0
 42
0.0
 43
0.0
 44
0.0
 45
0.0
 46
0.0
 47
0.0
 48
0.0
 49
0.0
140
0.0
141
0.0
142
1.0
143
1.0
 70
   688
 72
     1
 73
     0
 74
     5
  7

 75
    16
147
1.0
148
0.0
149
0.0
100
AcDbLayout
  1
Layout1
 70
     1
 71
     1
 10
0.0
 20
0.0
 11
420.0
 21
297.0
 12
0.0
 22
0.0
 32
0.0
 14
1.0000000000E+20
 24
1.0000000000E+20
 34
1.0000000000E+20
 15
-1.0000000000E+20
 25
-1.0000000000E+20
 35
-1.0000000000E+20
146
0.0
 13
0.0
 23
0.0
 33
0.0
 16
1.0
 26
0.0
 36
0.0
 17
0.0
 27
1.0
 37
0.0
 76
     0
330
1B
  0
LAYOUT
  5
26
102
{ACAD_REACTORS
330
1A
102
}
330
1A
100
AcDbPlotSettings
  1

  2
none_device
  4

  6

 40
0.0
 41
0.0
 42
0.0
 43
0.0
 44
0.0
 45
0.0
 46
0.0
 47
0.0
 48
0.0
 49
0.0
140
0.0
141
0.0
142
1.0
143
1.0
 70
   688
 72
     1
 73
     0
 74
     5
  7

 75
    16
147
1.0
148
0.0
149
0.0
100
AcDbLayout
  1
Layout2
 70
     1
 71
     2
 10
0.0
 20
0.0
 11
0.0
 21
0.0
 12
0.0
 22
0.0
 32
0.0
 14
0.0
 24
0.0
 34
0.0
 15
0.0
 25
0.0
 35
0.0
146
0.0
 13
0.0
 23
0.0
 33
0.0
 16
1.0
 26
0.0
 36
0.0
 17
0.0
 27
1.0
 37
0.0
 76
     0
330
23
  0
LAYOUT
  5
22
102
{ACAD_REACTORS
330
1A
102
}
330
1A
100
AcDbPlotSettings
  1

  2
none_device
  4
Letter_(8.50_x_11.00_Inches)
  6

 40
6.35
 41
6.35
 42
6.35000508
 43
6.35000508
 44
215.9
 45
279.4
 46
0.0
 47
0.0
 48
0.0
 49
0.0
140
0.0
141
0.0
142
1.0
143
1.0
 70
  1712
 72
     1
 73
     0
 74
     0
  7

 75
     0
147
1.0
148
0.0
149
0.0
100
AcDbLayout
  1
Model
 70
     1
 71
     0
 10
0.0
 20
0.0
 11
279.4
 21
215.9
 12
0.0
 22
0.0
 32
0.0
 14
0.0
 24
0.0
 34
0.0
 15
279.4
 25
215.9
 35
0.0
146
0.0
 13
0.0
 23
0.0
 33
0.0
 16
1.0
 26
0.0
 36
0.0
 17
0.0
 27
1.0
 37
0.0
 76
     0
330
1F
331
29
  0
MLINESTYLE
  5
18
102
{ACAD_REACTORS
330
17
102
}
330
17
100
AcDbMlineStyle
  2
Standard
 70
     0
  3

 62
   256
 51
90.0
 52
90.0
 71
     2
 49
0.5
 62
   256
  6
BYLAYER
 49
-0.5
 62
   256
  6
BYLAYER
  0
ACDBPLACEHOLDER
  5
F
102
{ACAD_REACTORS
330
E
102
}
330
E
  0
SCALE
  5
48
102
{ACAD_REACTORS
330
47
102
}
330
47
100
AcDbScale
 70
     0
300
1:1
140
1.0
141
1.0
290
     1
  0
SCALE
  5
49
102
{ACAD_REACTORS
330
47
102
}
330
47
100
AcDbScale
 70
     0
300
1:2
140
1.0
141
2.0
290
     0
  0
SCALE
  5
4A
102
{ACAD_REACTORS
330
47
102
}
330
47
100
AcDbScale
 70
     0
300
1:4
140
1.0
141
4.0
290
     0
  0
SCALE
  5
4B
102
{ACAD_REACTORS
330
47
102
}
330
47
100
AcDbScale
 70
     0
300
1:5
140
1.0
141
5.0
290
     0
  0
SCALE
  5
4C
102
{ACAD_REACTORS
330
47
102
}
330
47
100
AcDbScale
 70
     0
300
1:8
140
1.0
141
8.0
290
     0
  0
SCALE
  5
4D
102
{ACAD_REACTORS
330
47
102
}
330
47
100
AcDbScale
 70
     0
300
1:10
140
1.0
141
10.0
290
     0
  0
SCALE
  5
4E
102
{ACAD_REACTORS
330
47
102
}
330
47
100
AcDbScale
 70
     0
300
1:16
140
1.0
141
16.0
290
     0
  0
SCALE
  5
4F
102
{ACAD_REACTORS
330
47
102
}
330
47
100
AcDbScale
 70
     0
300
1:20
140
1.0
141
20.0
290
     0
  0
SCALE
  5
50
102
{ACAD_REACTORS
330
47
102
}
330
47
100
AcDbScale
 70
     0
300
1:30
140
1.0
141
30.0
290
     0
  0
SCALE
  5
51
102
{ACAD_REACTORS
330
47
102
}
330
47
100
AcDbScale
 70
     0
300
1:40
140
1.0
141
40.0
290
     0
  0
SCALE
  5
52
102
{ACAD_REACTORS
330
47
102
}
330
47
100
AcDbScale
 70
     0
300
1:50
140
1.0
141
50.0
290
     0
  0
SCALE
  5
53
102
{ACAD_REACTORS
330
47
102
}
330
47
100
AcDbScale
 70
     0
300
1:100
140
1.0
141
100.0
290
     0
  0
SCALE
  5
54
102
{ACAD_REACTORS
330
47
102
}
330
47
100
AcDbScale
 70
     0
300
2:1
140
2.0
141
1.0
290
     0
  0
SCALE
  5
55
102
{ACAD_REACTORS
330
47
102
}
330
47
100
AcDbScale
 70
     0
300
4:1
140
4.0
141
1.0
290
     0
  0
SCALE
  5
56
102
{ACAD_REACTORS
330
47
102
}
330
47
100
AcDbScale
 70
     0
300
8:1
140
8.0
141
1.0
290
     0
  0
SCALE
  5
57
102
{ACAD_REACTORS
330
47
102
}
330
47
100
AcDbScale
 70
     0
300
10:1
140
10.0
141
1.0
290
     0
  0
SCALE
  5
58
102
{ACAD_REACTORS
330
47
102
}
330
47
100
AcDbScale
 70
     0
300
100:1
140
100.0
141
1.0
290
     0
  0
SCALE
  5
59
102
{ACAD_REACTORS
330
47
102
}
330
47
100
AcDbScale
 70
     0
300
1/128" = 1'-0"
140
0.0078125
141
12.0
290
     0
  0
SCALE
  5
5A
102
{ACAD_REACTORS
330
47
102
}
330
47
100
AcDbScale
 70
     0
300
1/64" = 1'-0"
140
0.015625
141
12.0
290
     0
  0
SCALE
  5
5B
102
{ACAD_REACTORS
330
47
102
}
330
47
100
AcDbScale
 70
     0
300
1/32" = 1'-0"
140
0.03125
141
12.0
290
     0
  0
SCALE
  5
5C
102
{ACAD_REACTORS
330
47
102
}
330
47
100
AcDbScale
 70
     0
300
1/16" = 1'-0"
140
0.0625
141
12.0
290
     0
  0
SCALE
  5
5D
102
{ACAD_REACTORS
330
47
102
}
330
47
100
AcDbScale
 70
     0
300
3/32" = 1'-0"
140
0.09375
141
12.0
290
     0
  0
SCALE
  5
5E
102
{ACAD_REACTORS
330
47
102
}
330
47
100
AcDbScale
 70
     0
300
1/8" = 1'-0"
140
0.125
141
12.0
290
     0
  0
SCALE
  5
5F
102
{ACAD_REACTORS
330
47
102
}
330
47
100
AcDbScale
 70
     0
300
3/16" = 1'-0"
140
0.1875
141
12.0
290
     0
  0
SCALE
  5
60
102
{ACAD_REACTORS
330
47
102
}
330
47
100
AcDbScale
 70
     0
300
1/4" = 1'-0"
140
0.25
141
12.0
290
     0
  0
SCALE
  5
61
102
{ACAD_REACTORS
330
47
102
}
330
47
100
AcDbScale
 70
     0
300
3/8" = 1'-0"
140
0.375
141
12.0
290
     0
  0
SCALE
  5
62
102
{ACAD_REACTORS
330
47
102
}
330
47
100
AcDbScale
 70
     0
300
1/2" = 1'-0"
140
0.5
141
12.0
290
     0
  0
SCALE
  5
63
102
{ACAD_REACTORS
330
47
102
}
330
47
100
AcDbScale
 70
     0
300
3/4" = 1'-0"
140
0.75
141
12.0
290
     0
  0
SCALE
  5
64
102
{ACAD_REACTORS
330
47
102
}
330
47
100
AcDbScale
 70
     0
300
1" = 1'-0"
140
1.0
141
12.0
290
     0
  0
SCALE
  5
65
102
{ACAD_REACTORS
330
47
102
}
330
47
100
AcDbScale
 70
     0
300
1-1/2" = 1'-0"
140
1.5
141
12.0
290
     0
  0
SCALE
  5
66
102
{ACAD_REACTORS
330
47
102
}
330
47
100
AcDbScale
 70
     0
300
3" = 1'-0"
140
3.0
141
12.0
290
     0
  0
SCALE
  5
67
102
{ACAD_REACTORS
330
47
102
}
330
47
100
AcDbScale
 70
     0
300
6" = 1'-0"
140
6.0
141
12.0
290
     0
  0
SCALE
  5
68
102
{ACAD_REACTORS
330
47
102
}
330
47
100
AcDbScale
 70
     0
300
1'-0" = 1'-0"
140
12.0
141
12.0
290
     0
  0
ENDSEC
  0
EOF
